ISO-10303-21;
HEADER;
FILE_DESCRIPTION (( 'STEP AP203' ),
    '1' );
FILE_NAME ('UVFS-LNPBSP-50.8-355.STEP',
    '2020-12-22T04:15:23',
    ( '' ),
    ( '' ),
    'SwSTEP 2.0',
    'SolidWorks 2020',
    '' );
FILE_SCHEMA (( 'CONFIG_CONTROL_DESIGN' ));
ENDSEC;

DATA;
#1 = DIRECTION ( 'NONE',  ( 0.000000000000000000, 0.000000000000000000, -1.000000000000000000 ) ) ;
#2 = PERSON_AND_ORGANIZATION ( #130, #60 ) ;
#3 = CYLINDRICAL_SURFACE ( 'NONE', #14, 25.39999999999999858 ) ;
#4 = ORIENTED_EDGE ( 'NONE', *, *, #170, .T. ) ;
#5 = DIRECTION ( 'NONE',  ( -1.000000000000000000, -0.000000000000000000, -0.000000000000000000 ) ) ;
#6 = ORIENTED_EDGE ( 'NONE', *, *, #83, .F. ) ;
#7 = DIRECTION ( 'NONE',  ( 0.000000000000000000, 0.000000000000000000, 1.000000000000000000 ) ) ;
#8 = CARTESIAN_POINT ( 'NONE',  ( 0.000000000000000000, 0.000000000000000000, 0.000000000000000000 ) ) ;
#9 = APPROVAL_STATUS ( 'not_yet_approved' ) ;
#10 = AXIS2_PLACEMENT_3D ( 'NONE', #44, #90, #37 ) ;
#11 = CC_DESIGN_PERSON_AND_ORGANIZATION_ASSIGNMENT ( #13, #162, ( #175 ) ) ;
#12 = EDGE_CURVE ( 'NONE', #127, #52, #26, .T. ) ;
#13 = PERSON_AND_ORGANIZATION ( #130, #60 ) ;
#14 = AXIS2_PLACEMENT_3D ( 'NONE', #42, #97, #82 ) ;
#15 = PRODUCT_DEFINITION_SHAPE ( 'NONE', 'NONE',  #39 ) ;
#16 = APPLICATION_CONTEXT ( 'configuration controlled 3d designs of mechanical parts and assemblies' ) ;
#17 = CIRCLE ( 'NONE', #10, 25.39999999999999858 ) ;
#18 = FACE_OUTER_BOUND ( 'NONE', #167, .T. ) ;
#19 = ORIENTED_EDGE ( 'NONE', *, *, #94, .T. ) ;
#20 = ORIENTED_EDGE ( 'NONE', *, *, #83, .T. ) ;
#21 = DIRECTION ( 'NONE',  ( -1.000000000000000000, -0.000000000000000000, -0.000000000000000000 ) ) ;
#22 = ORIENTED_EDGE ( 'NONE', *, *, #68, .T. ) ;
#23 = DIRECTION ( 'NONE',  ( 0.000000000000000000, 0.000000000000000000, 1.000000000000000000 ) ) ;
#24 = PERSON_AND_ORGANIZATION ( #130, #60 ) ;
#25 = ADVANCED_BREP_SHAPE_REPRESENTATION ( 'UVFS-LNPBSP-50.8-355', ( #105, #28 ), #156 ) ;
#26 = CIRCLE ( 'NONE', #66, 25.39999999999999858 ) ;
#27 = PERSON_AND_ORGANIZATION_ROLE ( 'creator' ) ;
#28 = AXIS2_PLACEMENT_3D ( 'NONE', #8, #56, #35 ) ;
#29 = DATE_AND_TIME ( #139, #63 ) ;
#30 = DIRECTION ( 'NONE',  ( -1.000000000000000000, -0.000000000000000000, -0.000000000000000000 ) ) ;
#31 =( LENGTH_UNIT ( ) NAMED_UNIT ( * ) SI_UNIT ( .MILLI., .METRE. ) );
#32 = ORIENTED_EDGE ( 'NONE', *, *, #94, .F. ) ;
#33 = CARTESIAN_POINT ( 'NONE',  ( 0.000000000000000000, 3.110602869834276865E-15, -25.39999999999999858 ) ) ;
#34 = ORIENTED_EDGE ( 'NONE', *, *, #135, .T. ) ;
#35 = DIRECTION ( 'NONE',  ( 1.000000000000000000, 0.000000000000000000, 0.000000000000000000 ) ) ;
#36 = PERSON_AND_ORGANIZATION ( #130, #60 ) ;
#37 = DIRECTION ( 'NONE',  ( 0.000000000000000000, 0.000000000000000000, 1.000000000000000000 ) ) ;
#38 = CALENDAR_DATE ( 2020, 22, 12 ) ;
#39 = PRODUCT_DEFINITION ( 'UNKNOWN', '', #171, #96 ) ;
#40 = PERSON_AND_ORGANIZATION ( #130, #60 ) ;
#41 = SHAPE_DEFINITION_REPRESENTATION ( #15, #25 ) ;
#42 = CARTESIAN_POINT ( 'NONE',  ( 0.000000000000000000, 0.000000000000000000, 0.000000000000000000 ) ) ;
#43 = CARTESIAN_POINT ( 'NONE',  ( 2.999999999999996891, 3.110602869834276865E-15, -25.39999999999999858 ) ) ;
#44 = CARTESIAN_POINT ( 'NONE',  ( 2.999999999999996891, 0.000000000000000000, 0.000000000000000000 ) ) ;
#45 = PERSON_AND_ORGANIZATION_ROLE ( 'design_owner' ) ;
#46 = COORDINATED_UNIVERSAL_TIME_OFFSET ( 8, 0, .AHEAD. ) ;
#47 = CC_DESIGN_PERSON_AND_ORGANIZATION_ASSIGNMENT ( #72, #45, ( #81 ) ) ;
#48 = CIRCLE ( 'NONE', #57, 25.39999999999999858 ) ;
#49 = APPROVAL_DATE_TIME ( #77, #164 ) ;
#50 = APPROVAL_DATE_TIME ( #29, #106 ) ;
#51 = FACE_OUTER_BOUND ( 'NONE', #88, .T. ) ;
#52 = VERTEX_POINT ( 'NONE', #115 ) ;
#53 = FACE_OUTER_BOUND ( 'NONE', #114, .T. ) ;
#54 = ORIENTED_EDGE ( 'NONE', *, *, #12, .T. ) ;
#55 = CARTESIAN_POINT ( 'NONE',  ( -2.743208830090071026E-15, 0.000000000000000000, 0.000000000000000000 ) ) ;
#56 = DIRECTION ( 'NONE',  ( 0.000000000000000000, 0.000000000000000000, 1.000000000000000000 ) ) ;
#57 = AXIS2_PLACEMENT_3D ( 'NONE', #95, #30, #122 ) ;
#58 = CC_DESIGN_APPROVAL ( #164, ( #171 ) ) ;
#59 = DATE_AND_TIME ( #160, #75 ) ;
#60 = ORGANIZATION ( 'UNSPECIFIED', 'UNSPECIFIED', '' ) ;
#61 = ADVANCED_FACE ( 'NONE', ( #165 ), #102, .F. ) ;
#62 = AXIS2_PLACEMENT_3D ( 'NONE', #159, #146, #7 ) ;
#63 = LOCAL_TIME ( 12, 15, 23.00000000000000000, #79 ) ;
#64 = DATE_TIME_ROLE ( 'classification_date' ) ;
#65 = CARTESIAN_POINT ( 'NONE',  ( -2.743208830090071026E-15, 0.000000000000000000, 25.39999999999999858 ) ) ;
#66 = AXIS2_PLACEMENT_3D ( 'NONE', #117, #21, #23 ) ;
#67 = ORIENTED_EDGE ( 'NONE', *, *, #135, .F. ) ;
#68 = EDGE_CURVE ( 'NONE', #127, #70, #143, .T. ) ;
#69 = DIRECTION ( 'NONE',  ( -1.000000000000000000, -0.000000000000000000, -0.000000000000000000 ) ) ;
#70 = VERTEX_POINT ( 'NONE', #86 ) ;
#71 = DIRECTION ( 'NONE',  ( -0.000000000000000000, 0.000000000000000000, 1.000000000000000000 ) ) ;
#72 = PERSON_AND_ORGANIZATION ( #130, #60 ) ;
#73 = LOCAL_TIME ( 12, 15, 23.00000000000000000, #145 ) ;
#74 = ADVANCED_FACE ( 'NONE', ( #53 ), #128, .T. ) ;
#75 = LOCAL_TIME ( 12, 15, 23.00000000000000000, #133 ) ;
#76 = CLOSED_SHELL ( 'NONE', ( #74, #173, #61, #142 ) ) ;
#77 = DATE_AND_TIME ( #150, #73 ) ;
#78 = LOCAL_TIME ( 12, 15, 23.00000000000000000, #46 ) ;
#79 = COORDINATED_UNIVERSAL_TIME_OFFSET ( 8, 0, .AHEAD. ) ;
#80 = LINE ( 'NONE', #140, #166 ) ;
#81 = PRODUCT ( 'UVFS-LNPBSP-50.8-355', 'UVFS-LNPBSP-50.8-355', '', ( #87 ) ) ;
#82 = DIRECTION ( 'NONE',  ( 0.000000000000000000, 0.000000000000000000, 1.000000000000000000 ) ) ;
#83 = EDGE_CURVE ( 'NONE', #157, #70, #169, .T. ) ;
#84 = AXIS2_PLACEMENT_3D ( 'NONE', #99, #154, #71 ) ;
#85 = ORIENTED_EDGE ( 'NONE', *, *, #12, .F. ) ;
#86 = CARTESIAN_POINT ( 'NONE',  ( -2.743208830090071026E-15, 3.110602869834276865E-15, -25.39999999999999858 ) ) ;
#87 = MECHANICAL_CONTEXT ( 'NONE', #108, 'mechanical' ) ;
#88 = EDGE_LOOP ( 'NONE', ( #126, #54, #4, #67 ) ) ;
#89 = LOCAL_TIME ( 12, 15, 23.00000000000000000, #113 ) ;
#90 = DIRECTION ( 'NONE',  ( -1.000000000000000000, -0.000000000000000000, -0.000000000000000000 ) ) ;
#91 = DATE_AND_TIME ( #38, #78 ) ;
#92 = CC_DESIGN_DATE_AND_TIME_ASSIGNMENT ( #91, #147, ( #39 ) ) ;
#93 = CC_DESIGN_SECURITY_CLASSIFICATION ( #175, ( #171 ) ) ;
#94 = EDGE_CURVE ( 'NONE', #52, #127, #17, .T. ) ;
#95 = CARTESIAN_POINT ( 'NONE',  ( -2.743208830090071026E-15, 0.000000000000000000, 0.000000000000000000 ) ) ;
#96 = DESIGN_CONTEXT ( 'detailed design', #16, 'design' ) ;
#97 = DIRECTION ( 'NONE',  ( -1.000000000000000000, -0.000000000000000000, -0.000000000000000000 ) ) ;
#98 = AXIS2_PLACEMENT_3D ( 'NONE', #153, #124, #1 ) ;
#99 = CARTESIAN_POINT ( 'NONE',  ( 2.999999999999998224, 25.39999999999999858, 0.000000000000000000 ) ) ;
#100 = EDGE_LOOP ( 'NONE', ( #32, #85 ) ) ;
#101 = APPROVAL_PERSON_ORGANIZATION ( #2, #106, #111 ) ;
#102 = PLANE ( 'NONE',  #84 ) ;
#103 = APPLICATION_PROTOCOL_DEFINITION ( 'international standard', 'config_control_design', 1994, #16 ) ;
#104 = UNCERTAINTY_MEASURE_WITH_UNIT (LENGTH_MEASURE( 1.000000000000000082E-05 ), #31, 'distance_accuracy_value', 'NONE');
#105 = MANIFOLD_SOLID_BREP ( 'Ðý×', #76 ) ;
#106 = APPROVAL ( #152, 'UNSPECIFIED' ) ;
#107 = APPROVAL_ROLE ( '' ) ;
#108 = APPLICATION_CONTEXT ( 'configuration controlled 3d designs of mechanical parts and assemblies' ) ;
#109 = AXIS2_PLACEMENT_3D ( 'NONE', #55, #69, #168 ) ;
#110 = PERSON_AND_ORGANIZATION_ROLE ( 'design_supplier' ) ;
#111 = APPROVAL_ROLE ( '' ) ;
#112 =( NAMED_UNIT ( * ) PLANE_ANGLE_UNIT ( ) SI_UNIT ( $, .RADIAN. ) );
#113 = COORDINATED_UNIVERSAL_TIME_OFFSET ( 8, 0, .AHEAD. ) ;
#114 = EDGE_LOOP ( 'NONE', ( #19, #22, #6, #116 ) ) ;
#115 = CARTESIAN_POINT ( 'NONE',  ( 2.999999999999996891, 0.000000000000000000, 25.39999999999999858 ) ) ;
#116 = ORIENTED_EDGE ( 'NONE', *, *, #170, .F. ) ;
#117 = CARTESIAN_POINT ( 'NONE',  ( 2.999999999999996891, 0.000000000000000000, 0.000000000000000000 ) ) ;
#118 = PERSON_AND_ORGANIZATION ( #130, #60 ) ;
#119 = APPROVAL_ROLE ( '' ) ;
#120 = CC_DESIGN_APPROVAL ( #106, ( #175 ) ) ;
#121 = CC_DESIGN_DATE_AND_TIME_ASSIGNMENT ( #163, #64, ( #175 ) ) ;
#122 = DIRECTION ( 'NONE',  ( 0.000000000000000000, 0.000000000000000000, 1.000000000000000000 ) ) ;
#123 = CALENDAR_DATE ( 2020, 22, 12 ) ;
#124 = DIRECTION ( 'NONE',  ( 1.000000000000000000, 0.000000000000000000, 0.000000000000000000 ) ) ;
#125 = PLANE ( 'NONE',  #98 ) ;
#126 = ORIENTED_EDGE ( 'NONE', *, *, #68, .F. ) ;
#127 = VERTEX_POINT ( 'NONE', #43 ) ;
#128 = CYLINDRICAL_SURFACE ( 'NONE', #62, 25.39999999999999858 ) ;
#129 = CC_DESIGN_PERSON_AND_ORGANIZATION_ASSIGNMENT ( #40, #27, ( #171 ) ) ;
#130 = PERSON ( 'UNSPECIFIED', 'UNSPECIFIED', 'UNSPECIFIED', ('UNSPECIFIED'), ('UNSPECIFIED'), ('UNSPECIFIED') ) ;
#131 = APPROVAL_DATE_TIME ( #59, #136 ) ;
#132 = PRODUCT_RELATED_PRODUCT_CATEGORY ( 'detail', '', ( #81 ) ) ;
#133 = COORDINATED_UNIVERSAL_TIME_OFFSET ( 8, 0, .AHEAD. ) ;
#134 = APPROVAL_STATUS ( 'not_yet_approved' ) ;
#135 = EDGE_CURVE ( 'NONE', #70, #157, #48, .T. ) ;
#136 = APPROVAL ( #134, 'UNSPECIFIED' ) ;
#137 = SECURITY_CLASSIFICATION_LEVEL ( 'unclassified' ) ;
#138 = APPROVAL_PERSON_ORGANIZATION ( #24, #164, #119 ) ;
#139 = CALENDAR_DATE ( 2020, 22, 12 ) ;
#140 = CARTESIAN_POINT ( 'NONE',  ( 0.000000000000000000, 0.000000000000000000, 25.39999999999999858 ) ) ;
#141 = DIRECTION ( 'NONE',  ( -1.000000000000000000, -0.000000000000000000, -0.000000000000000000 ) ) ;
#142 = ADVANCED_FACE ( 'NONE', ( #18 ), #125, .F. ) ;
#143 = LINE ( 'NONE', #33, #148 ) ;
#144 =( NAMED_UNIT ( * ) SI_UNIT ( $, .STERADIAN. ) SOLID_ANGLE_UNIT ( ) );
#145 = COORDINATED_UNIVERSAL_TIME_OFFSET ( 8, 0, .AHEAD. ) ;
#146 = DIRECTION ( 'NONE',  ( -1.000000000000000000, -0.000000000000000000, -0.000000000000000000 ) ) ;
#147 = DATE_TIME_ROLE ( 'creation_date' ) ;
#148 = VECTOR ( 'NONE', #5, 1000.000000000000000 ) ;
#149 = CC_DESIGN_APPROVAL ( #136, ( #39 ) ) ;
#150 = CALENDAR_DATE ( 2020, 22, 12 ) ;
#151 = APPROVAL_PERSON_ORGANIZATION ( #118, #136, #107 ) ;
#152 = APPROVAL_STATUS ( 'not_yet_approved' ) ;
#153 = CARTESIAN_POINT ( 'NONE',  ( -1.371604415045035513E-15, 25.39999999999999858, 0.000000000000000000 ) ) ;
#154 = DIRECTION ( 'NONE',  ( -1.000000000000000000, 0.000000000000000000, -0.000000000000000000 ) ) ;
#155 = APPLICATION_PROTOCOL_DEFINITION ( 'international standard', 'config_control_design', 1994, #108 ) ;
#156 =( GEOMETRIC_REPRESENTATION_CONTEXT ( 3 ) GLOBAL_UNCERTAINTY_ASSIGNED_CONTEXT ( ( #104 ) ) GLOBAL_UNIT_ASSIGNED_CONTEXT ( ( #31, #112, #144 ) ) REPRESENTATION_CONTEXT ( 'NONE', 'WORKASPACE' ) );
#157 = VERTEX_POINT ( 'NONE', #65 ) ;
#158 = PERSON_AND_ORGANIZATION_ROLE ( 'creator' ) ;
#159 = CARTESIAN_POINT ( 'NONE',  ( 0.000000000000000000, 0.000000000000000000, 0.000000000000000000 ) ) ;
#160 = CALENDAR_DATE ( 2020, 22, 12 ) ;
#161 = CC_DESIGN_PERSON_AND_ORGANIZATION_ASSIGNMENT ( #36, #158, ( #39 ) ) ;
#162 = PERSON_AND_ORGANIZATION_ROLE ( 'classification_officer' ) ;
#163 = DATE_AND_TIME ( #123, #89 ) ;
#164 = APPROVAL ( #9, 'UNSPECIFIED' ) ;
#165 = FACE_OUTER_BOUND ( 'NONE', #100, .T. ) ;
#166 = VECTOR ( 'NONE', #141, 1000.000000000000000 ) ;
#167 = EDGE_LOOP ( 'NONE', ( #20, #34 ) ) ;
#168 = DIRECTION ( 'NONE',  ( 0.000000000000000000, 0.000000000000000000, 1.000000000000000000 ) ) ;
#169 = CIRCLE ( 'NONE', #109, 25.39999999999999858 ) ;
#170 = EDGE_CURVE ( 'NONE', #52, #157, #80, .T. ) ;
#171 = PRODUCT_DEFINITION_FORMATION_WITH_SPECIFIED_SOURCE ( 'ANY', '', #81, .NOT_KNOWN. ) ;
#172 = CC_DESIGN_PERSON_AND_ORGANIZATION_ASSIGNMENT ( #174, #110, ( #171 ) ) ;
#173 = ADVANCED_FACE ( 'NONE', ( #51 ), #3, .T. ) ;
#174 = PERSON_AND_ORGANIZATION ( #130, #60 ) ;
#175 = SECURITY_CLASSIFICATION ( '', '', #137 ) ;
ENDSEC;
END-ISO-10303-21;
